  0
SECTION
  2
HEADER
  9
$ACADVER
  1
AC1009
  9
$INSBASE
 10
0.0
 20
0.0
 30
0.0
  9
$EXTMIN
 10
0.0
 20
0.0
 30
0.0
  9
$EXTMAX
 10
2270.1479278669380619
 20
1953.5036606031630981
 30
0.0
  9
$LIMMIN
 10
0.0
 20
0.0
  9
$LIMMAX
 10
420.0
 20
297.0
  9
$ORTHOMODE
 70
     0
  9
$REGENMODE
 70
     1
  9
$FILLMODE
 70
     1
  9
$QTEXTMODE
 70
     0
  9
$MIRRTEXT
 70
     0
  9
$DRAGMODE
 70
     2
  9
$LTSCALE
 40
1.0
  9
$OSMODE
 70
    37
  9
$ATTMODE
 70
     1
  9
$TEXTSIZE
 40
2.5
  9
$TRACEWID
 40
1.0
  9
$TEXTSTYLE
  7
STANDARD
  9
$CLAYER
  8
0
  9
$CELTYPE
  6
BYLAYER
  9
$CECOLOR
 62
   256
  9
$DIMSCALE
 40
1.0
  9
$DIMASZ
 40
2.5
  9
$DIMEXO
 40
0.625
  9
$DIMDLI
 40
3.75
  9
$DIMRND
 40
0.0
  9
$DIMDLE
 40
0.0
  9
$DIMEXE
 40
1.25
  9
$DIMTP
 40
0.0
  9
$DIMTM
 40
0.0
  9
$DIMTXT
 40
2.5
  9
$DIMCEN
 40
2.5
  9
$DIMTSZ
 40
0.0
  9
$DIMTOL
 70
     0
  9
$DIMLIM
 70
     0
  9
$DIMTIH
 70
     0
  9
$DIMTOH
 70
     0
  9
$DIMSE1
 70
     0
  9
$DIMSE2
 70
     0
  9
$DIMTAD
 70
     1
  9
$DIMZIN
 70
     8
  9
$DIMBLK
  1

  9
$DIMASO
 70
     1
  9
$DIMSHO
 70
     1
  9
$DIMPOST
  1

  9
$DIMAPOST
  1

  9
$DIMALT
 70
     0
  9
$DIMALTD
 70
     3
  9
$DIMALTF
 40
0.03937007874016
  9
$DIMLFAC
 40
1.0
  9
$DIMTOFL
 70
     1
  9
$DIMTVP
 40
0.0
  9
$DIMTIX
 70
     0
  9
$DIMSOXD
 70
     0
  9
$DIMSAH
 70
     0
  9
$DIMBLK1
  1

  9
$DIMBLK2
  1

  9
$DIMSTYLE
  2
ISO-25
  9
$DIMCLRD
 70
     0
  9
$DIMCLRE
 70
     0
  9
$DIMCLRT
 70
     0
  9
$DIMTFAC
 40
1.0
  9
$DIMGAP
 40
0.625
  9
$LUNITS
 70
     2
  9
$LUPREC
 70
     4
  9
$SKETCHINC
 40
1.0
  9
$FILLETRAD
 40
0.0
  9
$AUNITS
 70
     0
  9
$AUPREC
 70
     0
  9
$MENU
  1
.
  9
$ELEVATION
 40
0.0
  9
$PELEVATION
 40
0.0
  9
$THICKNESS
 40
0.0
  9
$LIMCHECK
 70
     0
  9
$BLIPMODE
 70
     0
  9
$CHAMFERA
 40
0.0
  9
$CHAMFERB
 40
0.0
  9
$SKPOLY
 70
     0
  9
$TDCREATE
 40
2460036.5805092588998377
  9
$TDUPDATE
 40
2460036.7041435190476477
  9
$TDINDWG
 40
0.0157060185
  9
$TDUSRTIMER
 40
0.0157060185
  9
$USRTIMER
 70
     1
  9
$ANGBASE
 50
0.0
  9
$ANGDIR
 70
     0
  9
$PDMODE
 70
     0
  9
$PDSIZE
 40
0.0
  9
$PLINEWID
 40
0.0
  9
$COORDS
 70
     1
  9
$SPLFRAME
 70
     0
  9
$SPLINETYPE
 70
     6
  9
$SPLINESEGS
 70
     8
  9
$ATTDIA
 70
     1
  9
$ATTREQ
 70
     1
  9
$HANDLING
 70
     1
  9
$HANDSEED
  5
4C1
  9
$SURFTAB1
 70
     6
  9
$SURFTAB2
 70
     6
  9
$SURFTYPE
 70
     6
  9
$SURFU
 70
     6
  9
$SURFV
 70
     6
  9
$UCSNAME
  2

  9
$UCSORG
 10
0.0
 20
0.0
 30
0.0
  9
$UCSXDIR
 10
1.0
 20
0.0
 30
0.0
  9
$UCSYDIR
 10
0.0
 20
1.0
 30
0.0
  9
$PUCSNAME
  2

  9
$PUCSORG
 10
0.0
 20
0.0
 30
0.0
  9
$PUCSXDIR
 10
1.0
 20
0.0
 30
0.0
  9
$PUCSYDIR
 10
0.0
 20
1.0
 30
0.0
  9
$USERI1
 70
     0
  9
$USERI2
 70
     0
  9
$USERI3
 70
     0
  9
$USERI4
 70
     0
  9
$USERI5
 70
     0
  9
$USERR1
 40
0.0
  9
$USERR2
 40
0.0
  9
$USERR3
 40
0.0
  9
$USERR4
 40
0.0
  9
$USERR5
 40
0.0
  9
$WORLDVIEW
 70
     1
  9
$SHADEDGE
 70
     3
  9
$SHADEDIF
 70
    70
  9
$TILEMODE
 70
     1
  9
$MAXACTVP
 70
    64
  9
$PLIMCHECK
 70
     0
  9
$PEXTMIN
 10
0.0
 20
0.0
 30
0.0
  9
$PEXTMAX
 10
0.0
 20
0.0
 30
0.0
  9
$PLIMMIN
 10
0.0
 20
0.0
  9
$PLIMMAX
 10
12.0
 20
9.0
  9
$UNITMODE
 70
     0
  9
$VISRETAIN
 70
     1
  9
$PLINEGEN
 70
     0
  9
$PSLTSCALE
 70
     1
  0
ENDSEC
  0
SECTION
  2
TABLES
  0
TABLE
  2
VPORT
 70
     1
  0
VPORT
  2
*ACTIVE
 70
     0
 10
0.0
 20
0.0
 11
1.0
 21
1.0
 12
0.3945828560183524
 22
0.1638501834827402
 13
0.0
 23
0.0
 14
10.0
 24
10.0
 15
10.0
 25
10.0
 16
0.0
 26
0.0
 36
1.0
 17
0.0
 27
0.0
 37
0.0
 40
0.7343725781274557
 41
2.4015151515151509
 42
50.0
 43
0.0
 44
0.0
 50
0.0
 51
0.0
 71
     0
 72
  1000
 73
     1
 74
     3
 75
     0
 76
     1
 77
     0
 78
     0
  0
ENDTAB
  0
TABLE
  2
LTYPE
 70
     2
  0
LTYPE
  2
CONTINUOUS
 70
     0
  3
Solid line
 72
    65
 73
     0
 40
0.0
  0
ENDTAB
  0
TABLE
  2
LAYER
 70
     2
  0
LAYER
  2
0
 70
     0
 62
     7
  6
CONTINUOUS
  0
LAYER
  2
DEFPOINTS
 70
     0
 62
     7
  6
CONTINUOUS
  0
ENDTAB
  0
TABLE
  2
STYLE
 70
     2
  0
STYLE
  2
STANDARD
 70
     0
 40
0.0
 41
1.0
 50
0.0
 71
     0
 42
2.5
  3
txt
  4

  0
STYLE
  2
OPISOWY
 70
     0
 40
0.0
 41
1.0
 50
0.0
 71
     0
 42
2.5
  3
txt
  4

  0
ENDTAB
  0
TABLE
  2
VIEW
 70
     0
  0
ENDTAB
  0
TABLE
  2
UCS
 70
     0
  0
ENDTAB
  0
TABLE
  2
APPID
 70
    10
  0
APPID
  2
ACAD
 70
     0
  0
APPID
  2
ACAD_PSEXT
 70
     0
  0
APPID
  2
ACADANNOPO
 70
     0
  0
APPID
  2
ACADANNOTATIVE
 70
     0
  0
APPID
  2
ACAD_DSTYLE_DIMJAG
 70
     0
  0
APPID
  2
ACAD_DSTYLE_DIMTALN
 70
     0
  0
APPID
  2
ACAD_MLEADERVER
 70
     0
  0
APPID
  2
ACAD_NAV_VCDISPLAY
 70
     0
  0
APPID
  2
ACAD_EXEMPT_FROM_CAD_STANDARDS
 70
     0
  0
APPID
  2
ACAD_TC
 70
     0
  0
ENDTAB
  0
TABLE
  2
DIMSTYLE
 70
     4
  0
DIMSTYLE
  2
STANDARD
 70
     0
  3

  4

  5

  6

  7

 40
1.0
 41
0.18
 42
0.0625
 43
0.38
 44
0.18
 45
0.0
 46
0.0
 47
0.0
 48
0.0
140
0.18
141
0.09
142
0.0
143
25.3999999999999986
144
1.0
145
0.0
146
1.0
147
0.09
 71
     0
 72
     0
 73
     1
 74
     1
 75
     0
 76
     0
 77
     0
 78
     0
170
     0
171
     2
172
     0
173
     0
174
     0
175
     0
176
     0
177
     0
178
     0
  0
DIMSTYLE
  2
OPISOWY
 70
     0
  3

  4

  5

  6

  7

 40
0.0
 41
2.5
 42
0.625
 43
3.75
 44
1.25
 45
0.0
 46
0.0
 47
0.0
 48
0.0
140
2.5
141
2.5
142
0.0
143
0.03937007874016
144
1.0
145
0.0
146
1.0
147
0.625
 71
     0
 72
     0
 73
     0
 74
     0
 75
     0
 76
     0
 77
     1
 78
     8
170
     0
171
     3
172
     1
173
     0
174
     0
175
     0
176
     0
177
     0
178
     0
  0
DIMSTYLE
  2
ISO-25
 70
     0
  3

  4

  5

  6

  7

 40
1.0
 41
2.5
 42
0.625
 43
3.75
 44
1.25
 45
0.0
 46
0.0
 47
0.0
 48
0.0
140
2.5
141
2.5
142
0.0
143
0.03937007874016
144
1.0
145
0.0
146
1.0
147
0.625
 71
     0
 72
     0
 73
     0
 74
     0
 75
     0
 76
     0
 77
     1
 78
     8
170
     0
171
     3
172
     1
173
     0
174
     0
175
     0
176
     0
177
     0
178
     0
  0
ENDTAB
  0
ENDSEC
  0
SECTION
  2
BLOCKS
  0
BLOCK
  8
0
  2
$MODEL_SPACE
 70
     0
 10
0.0
 20
0.0
 30
0.0
  3
$MODEL_SPACE
  1

  0
ENDBLK
  5
21
  8
0
  0
BLOCK
 67
     1
  8
0
  2
$PAPER_SPACE
 70
     0
 10
0.0
 20
0.0
 30
0.0
  3
$PAPER_SPACE
  1

  0
ENDBLK
  5
D5
 67
     1
  8
0
  0
BLOCK
  8
0
  2
*U1
 70
     1
 10
0.0
 20
0.0
 30
0.0
  3
*U1
  1

  0
LINE
  5
2BD
  8
0
 10
-16.0
 20
0.0
 30
0.0
 11
16.0
 21
0.0
 31
0.0
  0
ENDBLK
  5
2B8
  8
0
  0
BLOCK
  8
0
  2
*D3
 70
     1
 10
0.0
 20
0.0
 30
0.0
  3
*D3
  1

  0
LINE
  5
406
  8
0
 62
     0
 10
2077.5229278669380619
 20
1453.5036606031640076
 30
0.0
 11
2075.9733867336490221
 21
1453.5036606031640076
 31
0.0
  0
LINE
  5
407
  8
0
 62
     0
 10
2077.5229278669380619
 20
1453.9865497254070306
 30
0.0
 11
2075.9733867336490221
 21
1453.9865497254070306
 31
0.0
  0
LINE
  5
408
  8
0
 62
     0
 10
2077.2233867336490221
 20
1451.0036606031640076
 30
0.0
 11
2077.2233867336490221
 21
1448.5036606031640076
 31
0.0
  0
LINE
  5
409
  8
0
 62
     0
 10
2077.2233867336490221
 20
1456.4865497254070306
 30
0.0
 11
2077.2233867336490221
 21
1466.7355265330470502
 31
0.0
  0
LINE
  5
40A
  8
0
 62
     0
 10
2077.2233867336490221
 20
1453.5036606031640076
 30
0.0
 11
2077.2233867336490221
 21
1453.9865497254070306
 31
0.0
  0
SOLID
  5
40B
  8
0
 62
     0
 10
2076.8067200669829617
 20
1451.0036606031640076
 30
0.0
 11
2077.6400534003150824
 21
1451.0036606031640076
 31
0.0
 12
2077.2233867336490221
 22
1453.5036606031640076
 32
0.0
 13
2077.2233867336490221
 23
1453.5036606031640076
 33
0.0
  0
SOLID
  5
40C
  8
0
 62
     0
 10
2076.8067200669829617
 20
1456.4865497254070306
 30
0.0
 11
2077.6400534003150824
 21
1456.4865497254070306
 31
0.0
 12
2077.2233867336490221
 22
1453.9865497254070306
 32
0.0
 13
2077.2233867336490221
 23
1453.9865497254070306
 33
0.0
  0
INSERT
  5
40D
  8
0
  2
*U5
 10
0.0
 20
0.0
 30
0.0
  0
POINT
  5
40E
  8
DEFPOINTS
 62
     0
 10
2078.1479278669389714
 20
1453.5036606031640076
 30
0.0
  0
POINT
  5
40F
  8
DEFPOINTS
 62
     0
 10
2078.1479278669389714
 20
1453.9865497254070306
 30
0.0
  0
POINT
  5
410
  8
DEFPOINTS
 62
     0
 10
2077.2233867336490221
 20
1453.9865497254070306
 30
0.0
  0
ENDBLK
  5
3F9
  8
0
  0
BLOCK
  8
0
  2
*U5
 70
     1
 10
0.0
 20
0.0
 30
0.0
  3
*U5
  1

  0
TEXT
  5
4BB
  8
0
 62
     0
 10
2076.1038437595698269
 20
1459.4665974743829793
 30
0.0
 40
2.5
  1
0,48
 50
90.0
  0
ENDBLK
  5
4BD
  8
0
  0
ENDSEC
  0
SECTION
  2
ENTITIES
  0
LINE
  5
308
  8
0
 10
0.0
 20
0.5
 30
0.0
 11
0.0320000000001528
 21
0.5
 31
0.0
  0
LINE
  5
309
  8
0
 10
0.0320000000001528
 20
0.5
 30
0.0
 11
0.0639999999998509
 21
0.5
 31
0.0
  0
LINE
  5
30A
  8
0
 10
0.0639999999998509
 20
0.5
 30
0.0
 11
0.0960000000000037
 21
0.5
 31
0.0
  0
LINE
  5
30B
  8
0
 10
0.0960000000000037
 20
0.5
 30
0.0
 11
0.1280000000001564
 21
0.5
 31
0.0
  0
LINE
  5
30C
  8
0
 10
0.1280000000001564
 20
0.5
 30
0.0
 11
0.1599999999998545
 21
0.5
 31
0.0
  0
LINE
  5
30D
  8
0
 10
0.1599999999998545
 20
0.5
 30
0.0
 11
0.1920000000000073
 21
0.5
 31
0.0
  0
LINE
  5
30E
  8
0
 10
0.0
 20
0.5
 30
0.0
 11
0.0
 21
0.4499999999998181
 31
0.0
  0
LINE
  5
310
  8
0
 10
0.0639999999998509
 20
0.5
 30
0.0
 11
0.0639999999998509
 21
0.4499999999998181
 31
0.0
  0
LINE
  5
311
  8
0
 10
0.0960000000000037
 20
0.5
 30
0.0
 11
0.0960000000000037
 21
0.4499999999998181
 31
0.0
  0
LINE
  5
312
  8
0
 10
0.1280000000001564
 20
0.5
 30
0.0
 11
0.1280000000001564
 21
0.4499999999998181
 31
0.0
  0
LINE
  5
313
  8
0
 10
0.1599999999998545
 20
0.5
 30
0.0
 11
0.1599999999998545
 21
0.4499999999998181
 31
0.0
  0
LINE
  5
314
  8
0
 10
0.1920000000000073
 20
0.5
 30
0.0
 11
0.1920000000000073
 21
0.4499999999998181
 31
0.0
  0
LINE
  5
315
  8
0
 10
0.0320000000001528
 20
0.5
 30
0.0
 11
0.0320000000001528
 21
0.4499999999998181
 31
0.0
  0
LINE
  5
316
  8
0
 10
0.0
 20
0.4499999999998181
 30
0.0
 11
0.0320000000001528
 21
0.4499999999998181
 31
0.0
  0
LINE
  5
317
  8
0
 10
0.0320000000001528
 20
0.4499999999998181
 30
0.0
 11
0.0639999999998509
 21
0.4499999999998181
 31
0.0
  0
LINE
  5
318
  8
0
 10
0.0639999999998509
 20
0.4499999999998181
 30
0.0
 11
0.0960000000000037
 21
0.4499999999998181
 31
0.0
  0
LINE
  5
319
  8
0
 10
0.0960000000000037
 20
0.4499999999998181
 30
0.0
 11
0.1280000000001564
 21
0.4499999999998181
 31
0.0
  0
LINE
  5
31A
  8
0
 10
0.1280000000001564
 20
0.4499999999998181
 30
0.0
 11
0.1599999999998545
 21
0.4499999999998181
 31
0.0
  0
LINE
  5
31B
  8
0
 10
0.1599999999998545
 20
0.4499999999998181
 30
0.0
 11
0.1920000000000073
 21
0.4499999999998181
 31
0.0
  0
LINE
  5
31C
  8
0
 10
0.0
 20
0.4499999999998181
 30
0.0
 11
0.0
 21
0.3999999999998636
 31
0.0
  0
LINE
  5
31D
  8
0
 10
0.0639999999998509
 20
0.4499999999998181
 30
0.0
 11
0.0639999999998509
 21
0.3999999999998636
 31
0.0
  0
LINE
  5
31E
  8
0
 10
0.0960000000000037
 20
0.4499999999998181
 30
0.0
 11
0.0960000000000037
 21
0.3999999999998636
 31
0.0
  0
LINE
  5
31F
  8
0
 10
0.1280000000001564
 20
0.4499999999998181
 30
0.0
 11
0.1280000000001564
 21
0.3999999999998636
 31
0.0
  0
LINE
  5
320
  8
0
 10
0.1599999999998545
 20
0.4499999999998181
 30
0.0
 11
0.1599999999998545
 21
0.3999999999998636
 31
0.0
  0
LINE
  5
321
  8
0
 10
0.1920000000000073
 20
0.4499999999998181
 30
0.0
 11
0.1920000000000073
 21
0.3999999999998636
 31
0.0
  0
LINE
  5
322
  8
0
 10
0.0320000000001528
 20
0.4499999999998181
 30
0.0
 11
0.0320000000001528
 21
0.3999999999998636
 31
0.0
  0
LINE
  5
323
  8
0
 10
0.0
 20
0.3999999999998636
 30
0.0
 11
0.0320000000001528
 21
0.3999999999998636
 31
0.0
  0
LINE
  5
324
  8
0
 10
0.0320000000001528
 20
0.3999999999998636
 30
0.0
 11
0.0639999999998509
 21
0.3999999999998636
 31
0.0
  0
LINE
  5
325
  8
0
 10
0.0639999999998509
 20
0.3999999999998636
 30
0.0
 11
0.0960000000000037
 21
0.3999999999998636
 31
0.0
  0
LINE
  5
326
  8
0
 10
0.0960000000000037
 20
0.3999999999998636
 30
0.0
 11
0.1280000000001564
 21
0.3999999999998636
 31
0.0
  0
LINE
  5
327
  8
0
 10
0.1280000000001564
 20
0.3999999999998636
 30
0.0
 11
0.1599999999998545
 21
0.3999999999998636
 31
0.0
  0
LINE
  5
328
  8
0
 10
0.1599999999998545
 20
0.3999999999998636
 30
0.0
 11
0.1920000000000073
 21
0.3999999999998636
 31
0.0
  0
LINE
  5
329
  8
0
 10
0.0
 20
0.3999999999998636
 30
0.0
 11
0.0
 21
0.349999999999909
 31
0.0
  0
LINE
  5
32A
  8
0
 10
0.0639999999998509
 20
0.3999999999998636
 30
0.0
 11
0.0639999999998509
 21
0.349999999999909
 31
0.0
  0
LINE
  5
32B
  8
0
 10
0.0960000000000037
 20
0.3999999999998636
 30
0.0
 11
0.0960000000000037
 21
0.349999999999909
 31
0.0
  0
LINE
  5
32C
  8
0
 10
0.1280000000001564
 20
0.3999999999998636
 30
0.0
 11
0.1280000000001564
 21
0.349999999999909
 31
0.0
  0
LINE
  5
32D
  8
0
 10
0.1599999999998545
 20
0.3999999999998636
 30
0.0
 11
0.1599999999998545
 21
0.349999999999909
 31
0.0
  0
LINE
  5
32E
  8
0
 10
0.1920000000000073
 20
0.3999999999998636
 30
0.0
 11
0.1920000000000073
 21
0.349999999999909
 31
0.0
  0
LINE
  5
32F
  8
0
 10
0.0320000000001528
 20
0.3999999999998636
 30
0.0
 11
0.0320000000001528
 21
0.349999999999909
 31
0.0
  0
LINE
  5
330
  8
0
 10
0.0
 20
0.349999999999909
 30
0.0
 11
0.0320000000001528
 21
0.349999999999909
 31
0.0
  0
LINE
  5
331
  8
0
 10
0.0320000000001528
 20
0.349999999999909
 30
0.0
 11
0.0639999999998509
 21
0.349999999999909
 31
0.0
  0
LINE
  5
332
  8
0
 10
0.0639999999998509
 20
0.349999999999909
 30
0.0
 11
0.0960000000000037
 21
0.349999999999909
 31
0.0
  0
LINE
  5
333
  8
0
 10
0.0960000000000037
 20
0.349999999999909
 30
0.0
 11
0.1280000000001564
 21
0.349999999999909
 31
0.0
  0
LINE
  5
334
  8
0
 10
0.1280000000001564
 20
0.349999999999909
 30
0.0
 11
0.1599999999998545
 21
0.349999999999909
 31
0.0
  0
LINE
  5
335
  8
0
 10
0.1599999999998545
 20
0.349999999999909
 30
0.0
 11
0.1920000000000073
 21
0.349999999999909
 31
0.0
  0
LINE
  5
336
  8
0
 10
0.0
 20
0.349999999999909
 30
0.0
 11
0.0
 21
0.2999999999999545
 31
0.0
  0
LINE
  5
337
  8
0
 10
0.0639999999998509
 20
0.349999999999909
 30
0.0
 11
0.0639999999998509
 21
0.2999999999999545
 31
0.0
  0
LINE
  5
338
  8
0
 10
0.0960000000000037
 20
0.349999999999909
 30
0.0
 11
0.0960000000000037
 21
0.2999999999999545
 31
0.0
  0
LINE
  5
339
  8
0
 10
0.1280000000001564
 20
0.349999999999909
 30
0.0
 11
0.1280000000001564
 21
0.2999999999999545
 31
0.0
  0
LINE
  5
33A
  8
0
 10
0.1599999999998545
 20
0.349999999999909
 30
0.0
 11
0.1599999999998545
 21
0.2999999999999545
 31
0.0
  0
LINE
  5
33B
  8
0
 10
0.1920000000000073
 20
0.349999999999909
 30
0.0
 11
0.1920000000000073
 21
0.2999999999999545
 31
0.0
  0
LINE
  5
33C
  8
0
 10
0.0320000000001528
 20
0.349999999999909
 30
0.0
 11
0.0320000000001528
 21
0.2999999999999545
 31
0.0
  0
LINE
  5
33D
  8
0
 10
0.0
 20
0.2999999999999545
 30
0.0
 11
0.0320000000001528
 21
0.2999999999999545
 31
0.0
  0
LINE
  5
33E
  8
0
 10
0.0320000000001528
 20
0.2999999999999545
 30
0.0
 11
0.0639999999998509
 21
0.2999999999999545
 31
0.0
  0
LINE
  5
33F
  8
0
 10
0.0639999999998509
 20
0.2999999999999545
 30
0.0
 11
0.0960000000000037
 21
0.2999999999999545
 31
0.0
  0
LINE
  5
340
  8
0
 10
0.0960000000000037
 20
0.2999999999999545
 30
0.0
 11
0.1280000000001564
 21
0.2999999999999545
 31
0.0
  0
LINE
  5
341
  8
0
 10
0.1280000000001564
 20
0.2999999999999545
 30
0.0
 11
0.1599999999998545
 21
0.2999999999999545
 31
0.0
  0
LINE
  5
342
  8
0
 10
0.1599999999998545
 20
0.2999999999999545
 30
0.0
 11
0.1920000000000073
 21
0.2999999999999545
 31
0.0
  0
LINE
  5
343
  8
0
 10
0.0
 20
0.2999999999999545
 30
0.0
 11
0.0
 21
0.25
 31
0.0
  0
LINE
  5
344
  8
0
 10
0.0639999999998509
 20
0.2999999999999545
 30
0.0
 11
0.0639999999998509
 21
0.25
 31
0.0
  0
LINE
  5
345
  8
0
 10
0.0960000000000037
 20
0.2999999999999545
 30
0.0
 11
0.0960000000000037
 21
0.25
 31
0.0
  0
LINE
  5
346
  8
0
 10
0.1280000000001564
 20
0.2999999999999545
 30
0.0
 11
0.1280000000001564
 21
0.25
 31
0.0
  0
LINE
  5
347
  8
0
 10
0.1599999999998545
 20
0.2999999999999545
 30
0.0
 11
0.1599999999998545
 21
0.25
 31
0.0
  0
LINE
  5
348
  8
0
 10
0.1920000000000073
 20
0.2999999999999545
 30
0.0
 11
0.1920000000000073
 21
0.25
 31
0.0
  0
LINE
  5
349
  8
0
 10
0.0320000000001528
 20
0.2999999999999545
 30
0.0
 11
0.0320000000001528
 21
0.25
 31
0.0
  0
LINE
  5
34A
  8
0
 10
0.0
 20
0.25
 30
0.0
 11
0.0320000000001528
 21
0.25
 31
0.0
  0
LINE
  5
34B
  8
0
 10
0.0320000000001528
 20
0.25
 30
0.0
 11
0.0639999999998509
 21
0.25
 31
0.0
  0
LINE
  5
34C
  8
0
 10
0.0639999999998509
 20
0.25
 30
0.0
 11
0.0960000000000037
 21
0.25
 31
0.0
  0
LINE
  5
34D
  8
0
 10
0.0960000000000037
 20
0.25
 30
0.0
 11
0.1280000000001564
 21
0.25
 31
0.0
  0
LINE
  5
34E
  8
0
 10
0.1280000000001564
 20
0.25
 30
0.0
 11
0.1599999999998545
 21
0.25
 31
0.0
  0
LINE
  5
34F
  8
0
 10
0.1599999999998545
 20
0.25
 30
0.0
 11
0.1920000000000073
 21
0.25
 31
0.0
  0
LINE
  5
350
  8
0
 10
0.0
 20
0.25
 30
0.0
 11
0.0
 21
0.1999999999998181
 31
0.0
  0
LINE
  5
351
  8
0
 10
0.0639999999998509
 20
0.25
 30
0.0
 11
0.0639999999998509
 21
0.1999999999998181
 31
0.0
  0
LINE
  5
352
  8
0
 10
0.0960000000000037
 20
0.25
 30
0.0
 11
0.0960000000000037
 21
0.1999999999998181
 31
0.0
  0
LINE
  5
353
  8
0
 10
0.1280000000001564
 20
0.25
 30
0.0
 11
0.1280000000001564
 21
0.1999999999998181
 31
0.0
  0
LINE
  5
354
  8
0
 10
0.1599999999998545
 20
0.25
 30
0.0
 11
0.1599999999998545
 21
0.1999999999998181
 31
0.0
  0
LINE
  5
355
  8
0
 10
0.1920000000000073
 20
0.25
 30
0.0
 11
0.1920000000000073
 21
0.1999999999998181
 31
0.0
  0
LINE
  5
356
  8
0
 10
0.0320000000001528
 20
0.25
 30
0.0
 11
0.0320000000001528
 21
0.1999999999998181
 31
0.0
  0
LINE
  5
357
  8
0
 10
0.0
 20
0.1999999999998181
 30
0.0
 11
0.0320000000001528
 21
0.1999999999998181
 31
0.0
  0
LINE
  5
358
  8
0
 10
0.0320000000001528
 20
0.1999999999998181
 30
0.0
 11
0.0639999999998509
 21
0.1999999999998181
 31
0.0
  0
LINE
  5
359
  8
0
 10
0.0639999999998509
 20
0.1999999999998181
 30
0.0
 11
0.0960000000000037
 21
0.1999999999998181
 31
0.0
  0
LINE
  5
35A
  8
0
 10
0.0960000000000037
 20
0.1999999999998181
 30
0.0
 11
0.1280000000001564
 21
0.1999999999998181
 31
0.0
  0
LINE
  5
35B
  8
0
 10
0.1280000000001564
 20
0.1999999999998181
 30
0.0
 11
0.1599999999998545
 21
0.1999999999998181
 31
0.0
  0
LINE
  5
35C
  8
0
 10
0.1599999999998545
 20
0.1999999999998181
 30
0.0
 11
0.1920000000000073
 21
0.1999999999998181
 31
0.0
  0
LINE
  5
35D
  8
0
 10
0.0
 20
0.1999999999998181
 30
0.0
 11
0.0
 21
0.1499999999998636
 31
0.0
  0
LINE
  5
35E
  8
0
 10
0.0639999999998509
 20
0.1999999999998181
 30
0.0
 11
0.0639999999998509
 21
0.1499999999998636
 31
0.0
  0
LINE
  5
35F
  8
0
 10
0.0960000000000037
 20
0.1999999999998181
 30
0.0
 11
0.0960000000000037
 21
0.1499999999998636
 31
0.0
  0
LINE
  5
360
  8
0
 10
0.1280000000001564
 20
0.1999999999998181
 30
0.0
 11
0.1280000000001564
 21
0.1499999999998636
 31
0.0
  0
LINE
  5
361
  8
0
 10
0.1599999999998545
 20
0.1999999999998181
 30
0.0
 11
0.1599999999998545
 21
0.1499999999998636
 31
0.0
  0
LINE
  5
362
  8
0
 10
0.1920000000000073
 20
0.1999999999998181
 30
0.0
 11
0.1920000000000073
 21
0.1499999999998636
 31
0.0
  0
LINE
  5
363
  8
0
 10
0.0320000000001528
 20
0.1999999999998181
 30
0.0
 11
0.0320000000001528
 21
0.1499999999998636
 31
0.0
  0
LINE
  5
364
  8
0
 10
0.0
 20
0.1499999999998636
 30
0.0
 11
0.0320000000001528
 21
0.1499999999998636
 31
0.0
  0
LINE
  5
365
  8
0
 10
0.0320000000001528
 20
0.1499999999998636
 30
0.0
 11
0.0639999999998509
 21
0.1499999999998636
 31
0.0
  0
LINE
  5
366
  8
0
 10
0.0639999999998509
 20
0.1499999999998636
 30
0.0
 11
0.0960000000000037
 21
0.1499999999998636
 31
0.0
  0
LINE
  5
367
  8
0
 10
0.0960000000000037
 20
0.1499999999998636
 30
0.0
 11
0.1280000000001564
 21
0.1499999999998636
 31
0.0
  0
LINE
  5
368
  8
0
 10
0.1280000000001564
 20
0.1499999999998636
 30
0.0
 11
0.1599999999998545
 21
0.1499999999998636
 31
0.0
  0
LINE
  5
369
  8
0
 10
0.1599999999998545
 20
0.1499999999998636
 30
0.0
 11
0.1920000000000073
 21
0.1499999999998636
 31
0.0
  0
LINE
  5
36A
  8
0
 10
0.0
 20
0.1499999999998636
 30
0.0
 11
0.0
 21
0.0999999999999091
 31
0.0
  0
LINE
  5
36B
  8
0
 10
0.0639999999998509
 20
0.1499999999998636
 30
0.0
 11
0.0639999999998509
 21
0.0999999999999091
 31
0.0
  0
LINE
  5
36C
  8
0
 10
0.0960000000000037
 20
0.1499999999998636
 30
0.0
 11
0.0960000000000037
 21
0.0999999999999091
 31
0.0
  0
LINE
  5
36D
  8
0
 10
0.1280000000001564
 20
0.1499999999998636
 30
0.0
 11
0.1280000000001564
 21
0.0999999999999091
 31
0.0
  0
LINE
  5
36E
  8
0
 10
0.1599999999998545
 20
0.1499999999998636
 30
0.0
 11
0.1599999999998545
 21
0.0999999999999091
 31
0.0
  0
LINE
  5
36F
  8
0
 10
0.1920000000000073
 20
0.1499999999998636
 30
0.0
 11
0.1920000000000073
 21
0.0999999999999091
 31
0.0
  0
LINE
  5
370
  8
0
 10
0.0320000000001528
 20
0.1499999999998636
 30
0.0
 11
0.0320000000001528
 21
0.0999999999999091
 31
0.0
  0
LINE
  5
371
  8
0
 10
0.0
 20
0.0999999999999091
 30
0.0
 11
0.0320000000001528
 21
0.0999999999999091
 31
0.0
  0
LINE
  5
372
  8
0
 10
0.0320000000001528
 20
0.0999999999999091
 30
0.0
 11
0.0639999999998509
 21
0.0999999999999091
 31
0.0
  0
LINE
  5
373
  8
0
 10
0.0639999999998509
 20
0.0999999999999091
 30
0.0
 11
0.0960000000000037
 21
0.0999999999999091
 31
0.0
  0
LINE
  5
374
  8
0
 10
0.0960000000000037
 20
0.0999999999999091
 30
0.0
 11
0.1280000000001564
 21
0.0999999999999091
 31
0.0
  0
LINE
  5
375
  8
0
 10
0.1280000000001564
 20
0.0999999999999091
 30
0.0
 11
0.1599999999998545
 21
0.0999999999999091
 31
0.0
  0
LINE
  5
376
  8
0
 10
0.1599999999998545
 20
0.0999999999999091
 30
0.0
 11
0.1920000000000073
 21
0.0999999999999091
 31
0.0
  0
LINE
  5
377
  8
0
 10
0.0
 20
0.0999999999999091
 30
0.0
 11
0.0
 21
0.0499999999999545
 31
0.0
  0
LINE
  5
378
  8
0
 10
0.0639999999998509
 20
0.0999999999999091
 30
0.0
 11
0.0639999999998509
 21
0.0499999999999545
 31
0.0
  0
LINE
  5
379
  8
0
 10
0.0960000000000037
 20
0.0999999999999091
 30
0.0
 11
0.0960000000000037
 21
0.0499999999999545
 31
0.0
  0
LINE
  5
37A
  8
0
 10
0.1280000000001564
 20
0.0999999999999091
 30
0.0
 11
0.1280000000001564
 21
0.0499999999999545
 31
0.0
  0
LINE
  5
37B
  8
0
 10
0.1599999999998545
 20
0.0999999999999091
 30
0.0
 11
0.1599999999998545
 21
0.0499999999999545
 31
0.0
  0
LINE
  5
37C
  8
0
 10
0.1920000000000073
 20
0.0999999999999091
 30
0.0
 11
0.1920000000000073
 21
0.0499999999999545
 31
0.0
  0
LINE
  5
37D
  8
0
 10
0.0320000000001528
 20
0.0999999999999091
 30
0.0
 11
0.0320000000001528
 21
0.0499999999999545
 31
0.0
  0
LINE
  5
37E
  8
0
 10
0.0
 20
0.0499999999999545
 30
0.0
 11
0.0320000000001528
 21
0.0499999999999545
 31
0.0
  0
LINE
  5
37F
  8
0
 10
0.0320000000001528
 20
0.0499999999999545
 30
0.0
 11
0.0639999999998509
 21
0.0499999999999545
 31
0.0
  0
LINE
  5
380
  8
0
 10
0.0639999999998509
 20
0.0499999999999545
 30
0.0
 11
0.0960000000000037
 21
0.0499999999999545
 31
0.0
  0
LINE
  5
381
  8
0
 10
0.0960000000000037
 20
0.0499999999999545
 30
0.0
 11
0.1280000000001564
 21
0.0499999999999545
 31
0.0
  0
LINE
  5
382
  8
0
 10
0.1280000000001564
 20
0.0499999999999545
 30
0.0
 11
0.1599999999998545
 21
0.0499999999999545
 31
0.0
  0
LINE
  5
383
  8
0
 10
0.1599999999998545
 20
0.0499999999999545
 30
0.0
 11
0.1920000000000073
 21
0.0499999999999545
 31
0.0
  0
LINE
  5
384
  8
0
 10
0.0
 20
0.0499999999999545
 30
0.0
 11
0.0
 21
0.0
 31
0.0
  0
LINE
  5
385
  8
0
 10
0.0639999999998509
 20
0.0499999999999545
 30
0.0
 11
0.0639999999998509
 21
0.0
 31
0.0
  0
LINE
  5
386
  8
0
 10
0.0960000000000037
 20
0.0499999999999545
 30
0.0
 11
0.0960000000000037
 21
0.0
 31
0.0
  0
LINE
  5
387
  8
0
 10
0.1280000000001564
 20
0.0499999999999545
 30
0.0
 11
0.1280000000001564
 21
0.0
 31
0.0
  0
LINE
  5
388
  8
0
 10
0.1599999999998545
 20
0.0499999999999545
 30
0.0
 11
0.1599999999998545
 21
0.0
 31
0.0
  0
LINE
  5
389
  8
0
 10
0.1920000000000073
 20
0.0499999999999545
 30
0.0
 11
0.1920000000000073
 21
0.0
 31
0.0
  0
LINE
  5
38A
  8
0
 10
0.0320000000001528
 20
0.0499999999999545
 30
0.0
 11
0.0320000000001528
 21
0.0
 31
0.0
  0
LINE
  5
38B
  8
0
 10
0.0
 20
0.0
 30
0.0
 11
0.0320000000001528
 21
0.0
 31
0.0
  0
LINE
  5
38C
  8
0
 10
0.0320000000001528
 20
0.0
 30
0.0
 11
0.0639999999998509
 21
0.0
 31
0.0
  0
LINE
  5
38D
  8
0
 10
0.0639999999998509
 20
0.0
 30
0.0
 11
0.0960000000000037
 21
0.0
 31
0.0
  0
LINE
  5
38E
  8
0
 10
0.0960000000000037
 20
0.0
 30
0.0
 11
0.1280000000001564
 21
0.0
 31
0.0
  0
LINE
  5
38F
  8
0
 10
0.1280000000001564
 20
0.0
 30
0.0
 11
0.1599999999998545
 21
0.0
 31
0.0
  0
LINE
  5
390
  8
0
 10
0.1599999999998545
 20
0.0
 30
0.0
 11
0.1920000000000073
 21
0.0
 31
0.0
  0
ENDSEC
  0
EOF
